  0
SECTION
  2
HEADER
  9
$ACADVER
  1
AC1015
  9
$ACADMAINTVER
 70
     6
  9
$DWGCODEPAGE
  3
ANSI_1254
  9
$INSBASE
 10
0.0
 20
0.0
 30
0.0
  9
$EXTMIN
 10
0.0
 20
0.0
 30
0.0
  9
$EXTMAX
 10
279.4
 20
215.9
 30
0.0
  9
$LIMMIN
 10
0.0
 20
0.0
  9
$LIMMAX
 10
279.4
 20
215.9
  9
$ORTHOMODE
 70
     0
  9
$REGENMODE
 70
     1
  9
$FILLMODE
 70
     1
  9
$QTEXTMODE
 70
     0
  9
$MIRRTEXT
 70
     1
  9
$LTSCALE
 40
1.0
  9
$ATTMODE
 70
     1
  9
$TEXTSIZE
 40
3.5
  9
$TRACEWID
 40
1.0
  9
$TEXTSTYLE
  7
Standard
  9
$CLAYER
  8
0
  9
$CELTYPE
  6
ByLayer
  9
$CECOLOR
 62
   256
  9
$CELTSCALE
 40
1.0
  9
$DISPSILH
 70
     0
  9
$DIMSCALE
 40
1.0
  9
$DIMASZ
 40
3.5
  9
$DIMEXO
 40
1.0
  9
$DIMDLI
 40
3.75
  9
$DIMRND
 40
0.0
  9
$DIMDLE
 40
0.0
  9
$DIMEXE
 40
1.0
  9
$DIMTP
 40
0.0
  9
$DIMTM
 40
0.0
  9
$DIMTXT
 40
3.5
  9
$DIMCEN
 40
2.5
  9
$DIMTSZ
 40
0.0
  9
$DIMTOL
 70
     0
  9
$DIMLIM
 70
     0
  9
$DIMTIH
 70
     1
  9
$DIMTOH
 70
     1
  9
$DIMSE1
 70
     0
  9
$DIMSE2
 70
     0
  9
$DIMTAD
 70
     1
  9
$DIMZIN
 70
     0
  9
$DIMBLK
  1

  9
$DIMASO
 70
     1
  9
$DIMSHO
 70
     1
  9
$DIMPOST
  1

  9
$DIMAPOST
  1

  9
$DIMALT
 70
     0
  9
$DIMALTD
 70
     3
  9
$DIMALTF
 40
0.0393700787
  9
$DIMLFAC
 40
1.0
  9
$DIMTOFL
 70
     1
  9
$DIMTVP
 40
0.0
  9
$DIMTIX
 70
     0
  9
$DIMSOXD
 70
     0
  9
$DIMSAH
 70
     0
  9
$DIMBLK1
  1

  9
$DIMBLK2
  1

  9
$DIMSTYLE
  2
ISO-25
  9
$DIMCLRD
 70
     0
  9
$DIMCLRE
 70
     0
  9
$DIMCLRT
 70
     0
  9
$DIMTFAC
 40
1.0
  9
$DIMGAP
 40
1.524
  9
$DIMJUST
 70
     0
  9
$DIMSD1
 70
     0
  9
$DIMSD2
 70
     0
  9
$DIMTOLJ
 70
     0
  9
$DIMTZIN
 70
     0
  9
$DIMALTZ
 70
     0
  9
$DIMALTTZ
 70
     0
  9
$DIMUPT
 70
     0
  9
$DIMDEC
 70
     2
  9
$DIMTDEC
 70
     2
  9
$DIMALTU
 70
     2
  9
$DIMALTTD
 70
     3
  9
$DIMTXSTY
  7
Standard
  9
$DIMAUNIT
 70
     0
  9
$DIMADEC
 70
     2
  9
$DIMALTRND
 40
0.0
  9
$DIMAZIN
 70
     0
  9
$DIMDSEP
 70
    44
  9
$DIMATFIT
 70
     3
  9
$DIMFRAC
 70
     0
  9
$DIMLDRBLK
  1

  9
$DIMLUNIT
 70
     2
  9
$DIMLWD
 70
    -2
  9
$DIMLWE
 70
    -2
  9
$DIMTMOVE
 70
     0
  9
$LUNITS
 70
     2
  9
$LUPREC
 70
     2
  9
$SKETCHINC
 40
1.0
  9
$FILLETRAD
 40
10.0
  9
$AUNITS
 70
     0
  9
$AUPREC
 70
     2
  9
$MENU
  1
.
  9
$ELEVATION
 40
0.0
  9
$PELEVATION
 40
0.0
  9
$THICKNESS
 40
0.0
  9
$LIMCHECK
 70
     0
  9
$CHAMFERA
 40
0.0
  9
$CHAMFERB
 40
0.0
  9
$CHAMFERC
 40
0.0
  9
$CHAMFERD
 40
0.0
  9
$SKPOLY
 70
     0
  9
$TDCREATE
 40
2458985.698713982
  9
$TDUCREATE
 40
2458985.573713982
  9
$TDUPDATE
 40
2458985.698714259
  9
$TDUUPDATE
 40
2458985.573714259
  9
$TDINDWG
 40
0.0000000116
  9
$TDUSRTIMER
 40
0.0000000116
  9
$USRTIMER
 70
     1
  9
$ANGBASE
 50
0.0
  9
$ANGDIR
 70
     0
  9
$PDMODE
 70
     0
  9
$PDSIZE
 40
-1.0
  9
$PLINEWID
 40
0.0
  9
$SPLFRAME
 70
     0
  9
$SPLINETYPE
 70
     6
  9
$SPLINESEGS
 70
     8
  9
$HANDSEED
  5
EC
  9
$SURFTAB1
 70
     6
  9
$SURFTAB2
 70
     6
  9
$SURFTYPE
 70
     6
  9
$SURFU
 70
     6
  9
$SURFV
 70
     6
  9
$UCSBASE
  2

  9
$UCSNAME
  2

  9
$UCSORG
 10
0.0
 20
0.0
 30
0.0
  9
$UCSXDIR
 10
1.0
 20
0.0
 30
0.0
  9
$UCSYDIR
 10
0.0
 20
1.0
 30
0.0
  9
$UCSORTHOREF
  2

  9
$UCSORTHOVIEW
 70
     0
  9
$UCSORGTOP
 10
0.0
 20
0.0
 30
0.0
  9
$UCSORGBOTTOM
 10
0.0
 20
0.0
 30
0.0
  9
$UCSORGLEFT
 10
0.0
 20
0.0
 30
0.0
  9
$UCSORGRIGHT
 10
0.0
 20
0.0
 30
0.0
  9
$UCSORGFRONT
 10
0.0
 20
0.0
 30
0.0
  9
$UCSORGBACK
 10
0.0
 20
0.0
 30
0.0
  9
$PUCSBASE
  2

  9
$PUCSNAME
  2

  9
$PUCSORG
 10
0.0
 20
0.0
 30
0.0
  9
$PUCSXDIR
 10
1.0
 20
0.0
 30
0.0
  9
$PUCSYDIR
 10
0.0
 20
1.0
 30
0.0
  9
$PUCSORTHOREF
  2

  9
$PUCSORTHOVIEW
 70
     0
  9
$PUCSORGTOP
 10
0.0
 20
0.0
 30
0.0
  9
$PUCSORGBOTTOM
 10
0.0
 20
0.0
 30
0.0
  9
$PUCSORGLEFT
 10
0.0
 20
0.0
 30
0.0
  9
$PUCSORGRIGHT
 10
0.0
 20
0.0
 30
0.0
  9
$PUCSORGFRONT
 10
0.0
 20
0.0
 30
0.0
  9
$PUCSORGBACK
 10
0.0
 20
0.0
 30
0.0
  9
$USERI1
 70
     0
  9
$USERI2
 70
     0
  9
$USERI3
 70
     0
  9
$USERI4
 70
     0
  9
$USERI5
 70
     0
  9
$USERR1
 40
0.0
  9
$USERR2
 40
0.0
  9
$USERR3
 40
0.0
  9
$USERR4
 40
0.0
  9
$USERR5
 40
0.0
  9
$WORLDVIEW
 70
     1
  9
$SHADEDGE
 70
     3
  9
$SHADEDIF
 70
    70
  9
$TILEMODE
 70
     1
  9
$MAXACTVP
 70
    64
  9
$PINSBASE
 10
0.0
 20
0.0
 30
0.0
  9
$PLIMCHECK
 70
     0
  9
$PEXTMIN
 10
1.0000000000E+20
 20
1.0000000000E+20
 30
1.0000000000E+20
  9
$PEXTMAX
 10
-1.0000000000E+20
 20
-1.0000000000E+20
 30
-1.0000000000E+20
  9
$PLIMMIN
 10
0.0
 20
0.0
  9
$PLIMMAX
 10
420.0
 20
297.0
  9
$UNITMODE
 70
     0
  9
$VISRETAIN
 70
     1
  9
$PLINEGEN
 70
     0
  9
$PSLTSCALE
 70
     1
  9
$TREEDEPTH
 70
  3020
  9
$CMLSTYLE
  2
Standard
  9
$CMLJUST
 70
     0
  9
$CMLSCALE
 40
20.0
  9
$PROXYGRAPHICS
 70
     1
  9
$MEASUREMENT
 70
     1
  9
$CELWEIGHT
370
    -1
  9
$ENDCAPS
280
     0
  9
$JOINSTYLE
280
     0
  9
$LWDISPLAY
290
     1
  9
$INSUNITS
 70
     4
  9
$HYPERLINKBASE
  1

  9
$STYLESHEET
  1

  9
$XEDIT
290
     1
  9
$CEPSNTYPE
380
     0
  9
$PSTYLEMODE
290
     1
  9
$FINGERPRINTGUID
  2
{d72f1eec-1f92-4e01-ae1d-7d2c39adf1e6}
  9
$VERSIONGUID
  2
{FAEB1C32-E019-11D5-929B-00C0DF256EC4}
  9
$EXTNAMES
290
     1
  9
$PSVPSCALE
 40
0.0
  9
$OLESTARTUP
290
     0
  0
ENDSEC
  0
SECTION
  2
CLASSES
  0
CLASS
  1
ACDBDICTIONARYWDFLT
  2
AcDbDictionaryWithDefault
  3
ObjectDBX Classes
 90
        0
280
     0
281
     0
  0
CLASS
  1
VISUALSTYLE
  2
AcDbVisualStyle
  3
ObjectDBX Classes
 90
     4095
280
     0
281
     0
  0
CLASS
  1
MATERIAL
  2
AcDbMaterial
  3
ObjectDBX Classes
 90
     1153
280
     0
281
     0
  0
CLASS
  1
SCALE
  2
AcDbScale
  3
ObjectDBX Classes
 90
     1153
280
     0
281
     0
  0
CLASS
  1
TABLESTYLE
  2
AcDbTableStyle
  3
ObjectDBX Classes
 90
     4095
280
     0
281
     0
  0
CLASS
  1
MLEADERSTYLE
  2
AcDbMLeaderStyle
  3
ACDB_MLEADERSTYLE_CLASS
 90
     4095
280
     0
281
     0
  0
CLASS
  1
SUN
  2
AcDbSun
  3
SCENEOE
 90
     1153
280
     0
281
     0
  0
CLASS
  1
ACDBPLACEHOLDER
  2
AcDbPlaceHolder
  3
ObjectDBX Classes
 90
        0
280
     0
281
     0
  0
CLASS
  1
LAYOUT
  2
AcDbLayout
  3
ObjectDBX Classes
 90
        0
280
     0
281
     0
  0
ENDSEC
  0
SECTION
  2
TABLES
  0
TABLE
  2
VPORT
  5
8
330
0
100
AcDbSymbolTable
 70
     1
  0
VPORT
  5
29
330
8
100
AcDbSymbolTableRecord
100
AcDbViewportTableRecord
  2
*Active
 70
     0
 10
0.0
 20
0.0
 11
1.0
 21
1.0
 12
139.7
 22
107.95
 13
0.0
 23
0.0
 14
10.0
 24
10.0
 15
10.0
 25
10.0
 16
0.0
 26
0.0
 36
1.0
 17
0.0
 27
0.0
 37
0.0
 40
215.9
 41
1.2941176471
 42
50.0
 43
0.0
 44
0.0
 50
0.0
 51
0.0
 71
     0
 72
  2000
 73
     1
 74
     3
 75
     0
 76
     0
 77
     0
 78
     0
281
     0
 65
     1
110
0.0
120
0.0
130
0.0
111
1.0
121
0.0
131
0.0
112
0.0
122
1.0
132
0.0
 79
     0
146
0.0
  0
ENDTAB
  0
TABLE
  2
LTYPE
  5
5
330
0
100
AcDbSymbolTable
 70
     6
  0
LTYPE
  5
14
330
5
100
AcDbSymbolTableRecord
100
AcDbLinetypeTableRecord
  2
ByBlock
 70
     0
  3

 72
    65
 73
     0
 40
0.0
  0
LTYPE
  5
15
330
5
100
AcDbSymbolTableRecord
100
AcDbLinetypeTableRecord
  2
ByLayer
 70
     0
  3

 72
    65
 73
     0
 40
0.0
  0
LTYPE
  5
16
330
5
100
AcDbSymbolTableRecord
100
AcDbLinetypeTableRecord
  2
Continuous
 70
     0
  3
Solid line
 72
    65
 73
     0
 40
0.0
  0
LTYPE
  5
6E
330
5
100
AcDbSymbolTableRecord
100
AcDbLinetypeTableRecord
  2
HIDDEN
 70
     0
  3
Hidden __ __ __ __ __ __ __ __ __ __ __ __ __ __
 72
    65
 73
     2
 40
1.905
 49
1.27
 74
     0
 49
-0.635
 74
     0
  0
LTYPE
  5
6F
330
5
100
AcDbSymbolTableRecord
100
AcDbLinetypeTableRecord
  2
PHANTOM
 70
     0
  3
Phantom ______  __  __  ______  __  __  ______
 72
    65
 73
     6
 40
12.7
 49
6.35
 74
     0
 49
-1.27
 74
     0
 49
1.27
 74
     0
 49
-1.27
 74
     0
 49
1.27
 74
     0
 49
-1.27
 74
     0
  0
LTYPE
  5
70
330
5
100
AcDbSymbolTableRecord
100
AcDbLinetypeTableRecord
  2
CENTER
 70
     0
  3
Center ____ _ ____ _ ____ _ ____ _ ____ _ ____
 72
    65
 73
     4
 40
10.16
 49
6.35
 74
     0
 49
-1.27
 74
     0
 49
1.27
 74
     0
 49
-1.27
 74
     0
  0
LTYPE
  5
71
330
5
100
AcDbSymbolTableRecord
100
AcDbLinetypeTableRecord
  2
CENTERX2
 70
     0
  3
Center (2x) ________  __  ________  __  _____
 72
    65
 73
     4
 40
20.32
 49
12.7
 74
     0
 49
-2.54
 74
     0
 49
2.54
 74
     0
 49
-2.54
 74
     0
  0
LTYPE
  5
72
330
5
100
AcDbSymbolTableRecord
100
AcDbLinetypeTableRecord
  2
DOT2
 70
     0
  3
Dot (.5x) ........................................
 72
    65
 73
     2
 40
0.635
 49
0.0
 74
     0
 49
-0.635
 74
     0
  0
ENDTAB
  0
TABLE
  2
LAYER
  5
2
330
0
100
AcDbSymbolTable
 70
    17
  0
LAYER
  5
10
330
2
100
AcDbSymbolTableRecord
100
AcDbLayerTableRecord
  2
0
 70
     0
 62
     7
  6
Continuous
370
    -3
390
F
  0
LAYER
  5
73
330
2
100
AcDbSymbolTableRecord
100
AcDbLayerTableRecord
  2
FORMAT
 70
     0
 62
     7
  6
Continuous
370
    -3
390
F
  0
LAYER
  5
74
330
2
100
AcDbSymbolTableRecord
100
AcDbLayerTableRecord
  2
YARDIMCI_GEOMETRI
 70
     0
 62
    -6
  6
Continuous
290
     0
370
    -3
390
F
  0
LAYER
  5
75
330
2
100
AcDbSymbolTableRecord
100
AcDbLayerTableRecord
  2
SAYFA_CERCEVESI
 70
     0
 62
     7
  6
Continuous
370
    25
390
F
  0
LAYER
  5
76
330
2
100
AcDbSymbolTableRecord
100
AcDbLayerTableRecord
  2
ANTET
 70
     0
 62
     7
  6
Continuous
370
    -3
390
F
  0
LAYER
  5
77
330
2
100
AcDbSymbolTableRecord
100
AcDbLayerTableRecord
  2
OLCU
 70
     0
 62
   150
  6
Continuous
370
    -3
390
F
  0
LAYER
  5
78
330
2
100
AcDbSymbolTableRecord
100
AcDbLayerTableRecord
  2
METIN
 70
     0
 62
    96
  6
Continuous
370
    -3
390
F
  0
LAYER
  5
79
330
2
100
AcDbSymbolTableRecord
100
AcDbLayerTableRecord
  2
BALON
 70
     0
 62
     5
  6
Continuous
370
    -3
390
F
  0
LAYER
  5
7A
330
2
100
AcDbSymbolTableRecord
100
AcDbLayerTableRecord
  2
VURGU
 70
     0
 62
     7
  6
Continuous
370
    -3
390
F
  0
LAYER
  5
7B
330
2
100
AcDbSymbolTableRecord
100
AcDbLayerTableRecord
  2
SILIK
 70
     0
 62
     7
  6
Continuous
370
    -3
390
F
  0
LAYER
  5
7C
330
2
100
AcDbSymbolTableRecord
100
AcDbLayerTableRecord
  2
MODEL
 70
     0
 62
     7
  6
Continuous
370
    -3
390
F
  0
LAYER
  5
7D
330
2
100
AcDbSymbolTableRecord
100
AcDbLayerTableRecord
  2
DETAYLANDıRMA
 70
     0
 62
   190
  6
Continuous
370
    -3
390
F
  0
LAYER
  5
7E
330
2
100
AcDbSymbolTableRecord
100
AcDbLayerTableRecord
  2
TOLERANS
 70
     0
 62
   230
  6
Continuous
370
    -3
390
F
  0
LAYER
  5
7F
330
2
100
AcDbSymbolTableRecord
100
AcDbLayerTableRecord
  2
MERKEZ_CIZGILERI
 70
     0
 62
    30
  6
Continuous
370
    -3
390
F
  0
LAYER
  5
80
330
2
100
AcDbSymbolTableRecord
100
AcDbLayerTableRecord
  2
KESIT-DETAY_CIZGILERI
 70
     0
 62
     7
  6
Continuous
370
    -3
390
F
  0
LAYER
  5
81
330
2
100
AcDbSymbolTableRecord
100
AcDbLayerTableRecord
  2
\U+041E\U+0421\U+0415\U+0412\U+042B\U+0415
 70
     0
 62
     7
  6
Continuous
370
    -3
390
F
  0
LAYER
  5
82
330
2
100
AcDbSymbolTableRecord
100
AcDbLayerTableRecord
  2
\U+0412\U+041E\U+0414\U+042F\U+041D\U+042B\U+0415_\U+0417\U+041D\U+0410\U+041A\U+0418
 70
     0
 62
    11
  6
Continuous
370
    -3
390
F
  0
ENDTAB
  0
TABLE
  2
STYLE
  5
3
330
0
100
AcDbSymbolTable
 70
     1
  0
STYLE
  5
11
330
3
100
AcDbSymbolTableRecord
100
AcDbTextStyleTableRecord
  2
Standard
 70
     0
 40
0.0
 41
1.0
 50
0.0
 71
     0
 42
3.5
  3
txt
  4

  0
ENDTAB
  0
TABLE
  2
VIEW
  5
6
330
0
100
AcDbSymbolTable
 70
     0
  0
ENDTAB
  0
TABLE
  2
UCS
  5
7
330
0
100
AcDbSymbolTable
 70
     0
  0
ENDTAB
  0
TABLE
  2
APPID
  5
9
330
0
100
AcDbSymbolTable
 70
     1
  0
APPID
  5
12
330
9
100
AcDbSymbolTableRecord
100
AcDbRegAppTableRecord
  2
ACAD
 70
     0
  0
ENDTAB
  0
TABLE
  2
DIMSTYLE
  5
A
330
0
100
AcDbSymbolTable
 70
     1
100
AcDbDimStyleTable
  0
DIMSTYLE
105
27
330
A
100
AcDbSymbolTableRecord
100
AcDbDimStyleTableRecord
  2
ISO-25
 70
     0
 41
2.5
 42
0.625
 43
3.75
 44
1.25
 73
     0
 74
     0
 77
     1
 78
     8
140
2.5
141
2.5
143
0.0393700787
147
0.625
171
     3
172
     1
178
     0
271
     2
272
     2
274
     3
278
    44
283
     0
284
     8
340
11
  0
ENDTAB
  0
TABLE
  2
BLOCK_RECORD
  5
1
330
0
100
AcDbSymbolTable
 70
     2
  0
BLOCK_RECORD
  5
1F
330
1
100
AcDbSymbolTableRecord
100
AcDbBlockTableRecord
  2
*Model_Space
340
22
  0
BLOCK_RECORD
  5
1B
330
1
100
AcDbSymbolTableRecord
100
AcDbBlockTableRecord
  2
*Paper_Space
340
1E
  0
BLOCK_RECORD
  5
23
330
1
100
AcDbSymbolTableRecord
100
AcDbBlockTableRecord
  2
*Paper_Space0
340
26
  0
BLOCK_RECORD
  5
88
330
1
100
AcDbSymbolTableRecord
100
AcDbBlockTableRecord
  2
SW_CENTERMARKSYMBOL_0
340
0
102
{BLKREFS
331
93
102
}
  0
ENDTAB
  0
ENDSEC
  0
SECTION
  2
BLOCKS
  0
BLOCK
  5
20
330
1F
100
AcDbEntity
  8
0
100
AcDbBlockBegin
  2
*Model_Space
 70
     0
 10
0.0
 20
0.0
 30
0.0
  3
*Model_Space
  1

  0
ENDBLK
  5
21
330
1F
100
AcDbEntity
  8
0
100
AcDbBlockEnd
  0
BLOCK
  5
1C
330
1B
100
AcDbEntity
 67
     1
  8
0
100
AcDbBlockBegin
  2
*Paper_Space
 70
     0
 10
0.0
 20
0.0
 30
0.0
  3
*Paper_Space
  1

  0
ENDBLK
  5
1D
330
1B
100
AcDbEntity
 67
     1
  8
0
100
AcDbBlockEnd
  0
BLOCK
  5
24
330
23
100
AcDbEntity
  8
0
100
AcDbBlockBegin
  2
*Paper_Space0
 70
     0
 10
0.0
 20
0.0
 30
0.0
  3
*Paper_Space0
  1

  0
ENDBLK
  5
25
330
23
100
AcDbEntity
  8
0
100
AcDbBlockEnd
  0
BLOCK
  5
89
330
88
100
AcDbEntity
  8
0
100
AcDbBlockBegin
  2
SW_CENTERMARKSYMBOL_0
 70
     0
 10
0.0
 20
0.0
 30
0.0
  3
SW_CENTERMARKSYMBOL_0
  1

  0
LINE
  5
8B
330
88
100
AcDbEntity
  8
FORMAT
 62
     0
100
AcDbLine
 10
0.0
 20
0.0
 30
0.0
 11
0.0
 21
2.5
 31
0.0
  0
LINE
  5
8C
330
88
100
AcDbEntity
  8
FORMAT
 62
     0
100
AcDbLine
 10
0.0
 20
0.0
 30
0.0
 11
-2.5
 21
0.0
 31
0.0
  0
LINE
  5
8D
330
88
100
AcDbEntity
  8
FORMAT
 62
     0
100
AcDbLine
 10
0.0
 20
0.0
 30
0.0
 11
0.0
 21
-2.5
 31
0.0
  0
LINE
  5
8E
330
88
100
AcDbEntity
  8
FORMAT
 62
     0
100
AcDbLine
 10
0.0
 20
0.0
 30
0.0
 11
2.5
 21
0.0
 31
0.0
  0
LINE
  5
8F
330
88
100
AcDbEntity
  8
FORMAT
 62
     0
100
AcDbLine
 10
0.0
 20
5.0
 30
0.0
 11
0.0
 21
40.0
 31
0.0
  0
LINE
  5
90
330
88
100
AcDbEntity
  8
FORMAT
 62
     0
100
AcDbLine
 10
-5.0
 20
0.0
 30
0.0
 11
-40.0
 21
0.0
 31
0.0
  0
LINE
  5
91
330
88
100
AcDbEntity
  8
FORMAT
 62
     0
100
AcDbLine
 10
0.0
 20
-5.0
 30
0.0
 11
0.0
 21
-40.0
 31
0.0
  0
LINE
  5
92
330
88
100
AcDbEntity
  8
FORMAT
 62
     0
100
AcDbLine
 10
5.0
 20
0.0
 30
0.0
 11
40.0
 21
0.0
 31
0.0
  0
ENDBLK
  5
8A
330
88
100
AcDbEntity
  8
0
100
AcDbBlockEnd
  0
ENDSEC
  0
SECTION
  2
ENTITIES
  0
CIRCLE
  5
83
330
1F
100
AcDbEntity
  8
0
  6
Continuous
 62
     7
370
    25
100
AcDbCircle
 10
139.395004093
 20
107.5851680021
 30
0.0
 40
37.50000000000001
  0
CIRCLE
  5
84
330
1F
100
AcDbEntity
  8
0
  6
Continuous
 62
     7
370
    25
100
AcDbCircle
 10
139.395004093
 20
107.5851680021
 30
0.0
 40
30.7
  0
CIRCLE
  5
85
330
1F
100
AcDbEntity
  8
0
  6
Continuous
 62
     7
370
    25
100
AcDbCircle
 10
139.395004093
 20
107.5851680021
 30
0.0
 40
30.64974746830585
  0
CIRCLE
  5
86
330
1F
100
AcDbEntity
  8
0
  6
Continuous
 62
     7
370
    25
100
AcDbCircle
 10
139.395004093
 20
107.5851680021
 30
0.0
 40
25.75025253169419
  0
CIRCLE
  5
87
330
1F
100
AcDbEntity
  8
0
  6
Continuous
 62
     7
370
    25
100
AcDbCircle
 10
139.395004093
 20
107.5851680021
 30
0.0
 40
25.70000000000002
  0
INSERT
  5
93
330
1F
100
AcDbEntity
  8
FORMAT
 62
     7
100
AcDbBlockReference
  2
SW_CENTERMARKSYMBOL_0
 10
139.395004093
 20
107.5851680021
 30
0.0
  0
LINE
  5
94
330
1F
100
AcDbEntity
  8
0
  6
Continuous
 62
     7
370
    25
100
AcDbLine
 10
-72.079964337
 20
145.0851694922
 30
0.0
 11
-141.9378280463
 21
145.0851694922
 31
0.0
  0
LINE
  5
95
330
1F
100
AcDbEntity
  8
0
  6
Continuous
 62
     7
370
    25
100
AcDbLine
 10
-141.9378280463
 20
70.085166512
 30
0.0
 11
-72.079964337
 21
70.085166512
 31
0.0
  0
ARC
  5
96
330
1F
100
AcDbEntity
  8
0
  6
Continuous
 62
     7
370
    25
100
AcDbCircle
 10
-72.0799651602
 20
143.0851680021
 30
0.0
 40
2.000000000000028
100
AcDbArc
 50
81.8698976458
 51
90.0
  0
ARC
  5
97
330
1F
100
AcDbEntity
  8
0
  6
Continuous
 62
     7
370
    25
100
AcDbCircle
 10
-72.0799651602
 20
72.0851680021
 30
0.0
 40
1.999999999999986
100
AcDbArc
 50
270.0
 51
278.1301023542
  0
LINE
  5
98
330
1F
100
AcDbEntity
  8
0
  6
Continuous
 62
     7
370
    25
100
AcDbLine
 10
-71.7971216711
 20
70.1052681784
 30
0.0
 11
-30.0785362544
 21
76.065065829
 31
0.0
  0
LINE
  5
99
330
1F
100
AcDbEntity
  8
0
  6
Continuous
 62
     7
370
    25
100
AcDbLine
 10
-30.0785362544
 20
139.1052701752
 30
0.0
 11
-71.7971216711
 21
145.0650678258
 31
0.0
  0
ARC
  5
9A
330
1F
100
AcDbEntity
  8
0
  6
Continuous
 62
     7
370
    25
100
AcDbCircle
 10
-29.7956939127
 20
141.0851680021
 30
0.0
 40
2.00000000000001
100
AcDbArc
 50
261.8698976458
 51
270.0
  0
ARC
  5
9B
330
1F
100
AcDbEntity
  8
0
  6
Continuous
 62
     7
370
    25
100
AcDbCircle
 10
-29.7956939127
 20
74.0851680021
 30
0.0
 40
2.000000000000014
100
AcDbArc
 50
90.0
 51
98.1301023542
  0
LINE
  5
9C
330
1F
100
AcDbEntity
  8
0
  6
Continuous
 62
     7
370
    25
100
AcDbLine
 10
33.0621689735
 20
139.0851685088
 30
0.0
 11
-29.7956935885
 21
139.0851685088
 31
0.0
  0
LINE
  5
9D
330
1F
100
AcDbEntity
  8
0
  6
Continuous
 62
     7
370
    25
100
AcDbLine
 10
-29.7956935885
 20
76.0851674955
 30
0.0
 11
33.0621689735
 21
76.0851674955
 31
0.0
  0
LINE
  5
9E
330
1F
100
AcDbEntity
  8
0
  6
Continuous
 62
     7
370
    25
100
AcDbLine
 10
-141.9378280463
 20
145.0851694922
 30
0.0
 11
-141.9378280463
 21
70.085166512
 31
0.0
  0
LINE
  5
9F
330
1F
100
AcDbEntity
  8
0
  6
Continuous
 62
     7
370
    25
100
AcDbLine
 10
33.0621689735
 20
139.0851685088
 30
0.0
 11
33.0621689735
 21
76.0851674955
 31
0.0
  0
LINE
  5
A0
330
1F
100
AcDbEntity
  8
0
  6
Continuous
 62
     1
370
    25
100
AcDbLine
 10
-72.079964337
 20
145.0851694922
 30
0.0
 11
-72.079964337
 21
70.085166512
 31
0.0
  0
LINE
  5
A1
330
1F
100
AcDbEntity
  8
0
  6
Continuous
 62
     1
370
    25
100
AcDbLine
 10
-71.7971216711
 20
145.0650678258
 30
0.0
 11
-71.7971216711
 21
70.1052681784
 31
0.0
  0
LINE
  5
A2
330
1F
100
AcDbEntity
  8
0
  6
Continuous
 62
     1
370
    25
100
AcDbLine
 10
-30.0785362544
 20
139.1052701752
 30
0.0
 11
-30.0785362544
 21
76.065065829
 31
0.0
  0
LINE
  5
A3
330
1F
100
AcDbEntity
  8
0
  6
Continuous
 62
     1
370
    25
100
AcDbLine
 10
-29.7956935885
 20
139.0851685088
 30
0.0
 11
-29.7956935885
 21
76.0851674955
 31
0.0
  0
LINE
  5
A4
330
1F
100
AcDbEntity
  8
0
  6
Continuous
 62
     7
370
    25
100
AcDbLine
 10
337.2293520687
 20
70.085166512
 30
0.0
 11
407.087215778
 21
70.085166512
 31
0.0
  0
LINE
  5
A5
330
1F
100
AcDbEntity
  8
0
  6
Continuous
 62
     7
370
    25
100
AcDbLine
 10
407.087215778
 20
145.0851694922
 30
0.0
 11
337.2293520687
 21
145.0851694922
 31
0.0
  0
ARC
  5
A6
330
1F
100
AcDbEntity
  8
0
  6
Continuous
 62
     7
370
    25
100
AcDbCircle
 10
337.2293528919
 20
72.0851680021
 30
0.0
 40
1.999999999999986
100
AcDbArc
 50
261.8698976458
 51
270.0
  0
ARC
  5
A7
330
1F
100
AcDbEntity
  8
0
  6
Continuous
 62
     7
370
    25
100
AcDbCircle
 10
337.2293528919
 20
143.0851680021
 30
0.0
 40
2.000000000000028
100
AcDbArc
 50
90.0
 51
98.1301023542
  0
LINE
  5
A8
330
1F
100
AcDbEntity
  8
0
  6
Continuous
 62
     7
370
    25
100
AcDbLine
 10
336.9465094028
 20
145.0650678258
 30
0.0
 11
295.2279239861
 21
139.1052701752
 31
0.0
  0
LINE
  5
A9
330
1F
100
AcDbEntity
  8
0
  6
Continuous
 62
     7
370
    25
100
AcDbLine
 10
295.2279239861
 20
76.065065829
 30
0.0
 11
336.9465094028
 21
70.1052681784
 31
0.0
  0
ARC
  5
AA
330
1F
100
AcDbEntity
  8
0
  6
Continuous
 62
     7
370
    25
100
AcDbCircle
 10
294.9450816444
 20
74.0851680021
 30
0.0
 40
2.000000000000014
100
AcDbArc
 50
81.8698976458
 51
90.0
  0
ARC
  5
AB
330
1F
100
AcDbEntity
  8
0
  6
Continuous
 62
     7
370
    25
100
AcDbCircle
 10
294.9450816444
 20
141.0851680021
 30
0.0
 40
2.000000000000012
100
AcDbArc
 50
270.0
 51
278.1301023542
  0
LINE
  5
AC
330
1F
100
AcDbEntity
  8
0
  6
Continuous
 62
     7
370
    25
100
AcDbLine
 10
232.0872187583
 20
76.0851674955
 30
0.0
 11
294.9450813202
 21
76.0851674955
 31
0.0
  0
LINE
  5
AD
330
1F
100
AcDbEntity
  8
0
  6
Continuous
 62
     7
370
    25
100
AcDbLine
 10
294.9450813202
 20
139.0851685088
 30
0.0
 11
232.0872187583
 21
139.0851685088
 31
0.0
  0
LINE
  5
AE
330
1F
100
AcDbEntity
  8
0
  6
Continuous
 62
     7
370
    25
100
AcDbLine
 10
407.087215778
 20
107.5851680021
 30
0.0
 11
407.087215778
 21
145.0851694922
 31
0.0
  0
LINE
  5
AF
330
1F
100
AcDbEntity
  8
0
  6
Continuous
 62
     7
370
    25
100
AcDbLine
 10
407.087215778
 20
70.085166512
 30
0.0
 11
407.087215778
 21
107.5851680021
 31
0.0
  0
LINE
  5
B0
330
1F
100
AcDbEntity
  8
0
  6
Continuous
 62
     7
370
    25
100
AcDbLine
 10
232.0872187583
 20
107.5851680021
 30
0.0
 11
232.0872187583
 21
139.0851685088
 31
0.0
  0
LINE
  5
B1
330
1F
100
AcDbEntity
  8
0
  6
Continuous
 62
     7
370
    25
100
AcDbLine
 10
232.0872187583
 20
76.0851674955
 30
0.0
 11
232.0872187583
 21
107.5851680021
 31
0.0
  0
LINE
  5
B2
330
1F
100
AcDbEntity
  8
0
  6
Continuous
 62
     1
370
    25
100
AcDbLine
 10
337.2293520687
 20
107.5851680021
 30
0.0
 11
337.2293520687
 21
145.0851694922
 31
0.0
  0
LINE
  5
B3
330
1F
100
AcDbEntity
  8
0
  6
Continuous
 62
     1
370
    25
100
AcDbLine
 10
337.2293520687
 20
70.085166512
 30
0.0
 11
337.2293520687
 21
107.5851680021
 31
0.0
  0
LINE
  5
B4
330
1F
100
AcDbEntity
  8
0
  6
Continuous
 62
     1
370
    25
100
AcDbLine
 10
336.9465094028
 20
107.5851680021
 30
0.0
 11
336.9465094028
 21
145.0650678258
 31
0.0
  0
LINE
  5
B5
330
1F
100
AcDbEntity
  8
0
  6
Continuous
 62
     1
370
    25
100
AcDbLine
 10
336.9465094028
 20
70.1052681784
 30
0.0
 11
336.9465094028
 21
107.5851680021
 31
0.0
  0
LINE
  5
B6
330
1F
100
AcDbEntity
  8
0
  6
Continuous
 62
     1
370
    25
100
AcDbLine
 10
295.2279239861
 20
107.5851680021
 30
0.0
 11
295.2279239861
 21
139.1052701752
 31
0.0
  0
LINE
  5
B7
330
1F
100
AcDbEntity
  8
0
  6
Continuous
 62
     1
370
    25
100
AcDbLine
 10
295.2279239861
 20
76.065065829
 30
0.0
 11
295.2279239861
 21
107.5851680021
 31
0.0
  0
LINE
  5
B8
330
1F
100
AcDbEntity
  8
0
  6
Continuous
 62
     1
370
    25
100
AcDbLine
 10
294.9450813202
 20
107.5851680021
 30
0.0
 11
294.9450813202
 21
139.0851685088
 31
0.0
  0
LINE
  5
B9
330
1F
100
AcDbEntity
  8
0
  6
Continuous
 62
     1
370
    25
100
AcDbLine
 10
294.9450813202
 20
76.0851674955
 30
0.0
 11
294.9450813202
 21
107.5851680021
 31
0.0
  0
LINE
  5
BA
330
1F
100
AcDbEntity
  8
0
  6
Continuous
 62
     7
370
    25
100
AcDbLine
 10
176.8950055832
 20
299.4187127463
 30
0.0
 11
176.8950055832
 21
369.2765764556
 31
0.0
  0
LINE
  5
BB
330
1F
100
AcDbEntity
  8
0
  6
Continuous
 62
     7
370
    25
100
AcDbLine
 10
101.8950026029
 20
369.2765764556
 30
0.0
 11
101.8950026029
 21
299.4187127463
 31
0.0
  0
ARC
  5
BC
330
1F
100
AcDbEntity
  8
0
  6
Continuous
 62
     7
370
    25
100
AcDbCircle
 10
174.895004093
 20
299.4187135695
 30
0.0
 40
1.999999999999976
100
AcDbArc
 50
351.8698976458
 51
0.0
  0
ARC
  5
BD
330
1F
100
AcDbEntity
  8
0
  6
Continuous
 62
     7
370
    25
100
AcDbCircle
 10
103.895004093
 20
299.4187135695
 30
0.0
 40
2.0
100
AcDbArc
 50
180.0
 51
188.1301023542
  0
LINE
  5
BE
330
1F
100
AcDbEntity
  8
0
  6
Continuous
 62
     7
370
    25
100
AcDbLine
 10
101.9151042694
 20
299.1358700804
 30
0.0
 11
107.87490192
 21
257.4172846637
 31
0.0
  0
LINE
  5
BF
330
1F
100
AcDbEntity
  8
0
  6
Continuous
 62
     7
370
    25
100
AcDbLine
 10
170.9151062661
 20
257.4172846637
 30
0.0
 11
176.8749039167
 21
299.1358700804
 31
0.0
  0
ARC
  5
C0
330
1F
100
AcDbEntity
  8
0
  6
Continuous
 62
     7
370
    25
100
AcDbCircle
 10
172.895004093
 20
257.134442322
 30
0.0
 40
2.000000000000012
100
AcDbArc
 50
171.8698976458
 51
180.0
  0
ARC
  5
C1
330
1F
100
AcDbEntity
  8
0
  6
Continuous
 62
     7
370
    25
100
AcDbCircle
 10
105.895004093
 20
257.134442322
 30
0.0
 40
2.000000000000012
100
AcDbArc
 50
0.0
 51
8.1301023542
  0
LINE
  5
C2
330
1F
100
AcDbEntity
  8
0
  6
Continuous
 62
     7
370
    25
100
AcDbLine
 10
170.8950045997
 20
194.2765794359
 30
0.0
 11
170.8950045997
 21
257.1344419978
 31
0.0
  0
LINE
  5
C3
330
1F
100
AcDbEntity
  8
0
  6
Continuous
 62
     7
370
    25
100
AcDbLine
 10
107.8950035864
 20
257.1344419978
 30
0.0
 11
107.8950035864
 21
194.2765794359
 31
0.0
  0
LINE
  5
C4
330
1F
100
AcDbEntity
  8
0
  6
Continuous
 62
     7
370
    25
100
AcDbLine
 10
176.8950055832
 20
369.2765764556
 30
0.0
 11
101.8950026029
 21
369.2765764556
 31
0.0
  0
LINE
  5
C5
330
1F
100
AcDbEntity
  8
0
  6
Continuous
 62
     7
370
    25
100
AcDbLine
 10
170.8950045997
 20
194.2765794359
 30
0.0
 11
107.8950035864
 21
194.2765794359
 31
0.0
  0
LINE
  5
C6
330
1F
100
AcDbEntity
  8
0
  6
Continuous
 62
     1
370
    25
100
AcDbLine
 10
176.8950055832
 20
299.4187127463
 30
0.0
 11
101.8950026029
 21
299.4187127463
 31
0.0
  0
LINE
  5
C7
330
1F
100
AcDbEntity
  8
0
  6
Continuous
 62
     1
370
    25
100
AcDbLine
 10
176.8749039167
 20
299.1358700804
 30
0.0
 11
101.9151042694
 21
299.1358700804
 31
0.0
  0
LINE
  5
C8
330
1F
100
AcDbEntity
  8
0
  6
Continuous
 62
     1
370
    25
100
AcDbLine
 10
170.9151062661
 20
257.4172846637
 30
0.0
 11
107.87490192
 21
257.4172846637
 31
0.0
  0
LINE
  5
C9
330
1F
100
AcDbEntity
  8
0
  6
Continuous
 62
     1
370
    25
100
AcDbLine
 10
170.8950045997
 20
257.1344419978
 30
0.0
 11
107.8950035864
 21
257.1344419978
 31
0.0
  0
LINE
  5
CA
330
1F
100
AcDbEntity
  8
0
  6
Continuous
 62
     7
370
    25
100
AcDbLine
 10
101.8950026029
 20
-85.2706560022
 30
0.0
 11
101.8950026029
 21
-155.1285197116
 31
0.0
  0
LINE
  5
CB
330
1F
100
AcDbEntity
  8
0
  6
Continuous
 62
     7
370
    25
100
AcDbLine
 10
176.8950055832
 20
-155.1285197116
 30
0.0
 11
176.8950055832
 21
-85.2706560022
 31
0.0
  0
ARC
  5
CC
330
1F
100
AcDbEntity
  8
0
  6
Continuous
 62
     7
370
    25
100
AcDbCircle
 10
103.895004093
 20
-85.2706568254
 30
0.0
 40
2.0
100
AcDbArc
 50
171.8698976458
 51
180.0
  0
ARC
  5
CD
330
1F
100
AcDbEntity
  8
0
  6
Continuous
 62
     7
370
    25
100
AcDbCircle
 10
174.895004093
 20
-85.2706568254
 30
0.0
 40
1.999999999999982
100
AcDbArc
 50
0.0
 51
8.1301023542
  0
LINE
  5
CE
330
1F
100
AcDbEntity
  8
0
  6
Continuous
 62
     7
370
    25
100
AcDbLine
 10
176.8749039167
 20
-84.9878133363
 30
0.0
 11
170.9151062661
 21
-43.2692279197
 31
0.0
  0
LINE
  5
CF
330
1F
100
AcDbEntity
  8
0
  6
Continuous
 62
     7
370
    25
100
AcDbLine
 10
107.87490192
 20
-43.2692279197
 30
0.0
 11
101.9151042694
 21
-84.9878133363
 31
0.0
  0
ARC
  5
D0
330
1F
100
AcDbEntity
  8
0
  6
Continuous
 62
     7
370
    25
100
AcDbCircle
 10
105.895004093
 20
-42.986385578
 30
0.0
 40
2.00000000000001
100
AcDbArc
 50
351.8698976458
 51
0.0
  0
ARC
  5
D1
330
1F
100
AcDbEntity
  8
0
  6
Continuous
 62
     7
370
    25
100
AcDbCircle
 10
172.895004093
 20
-42.986385578
 30
0.0
 40
2.00000000000001
100
AcDbArc
 50
180.0
 51
188.1301023542
  0
LINE
  5
D2
330
1F
100
AcDbEntity
  8
0
  6
Continuous
 62
     7
370
    25
100
AcDbLine
 10
107.8950035864
 20
19.8714773082
 30
0.0
 11
107.8950035864
 21
-42.9863852538
 31
0.0
  0
LINE
  5
D3
330
1F
100
AcDbEntity
  8
0
  6
Continuous
 62
     7
370
    25
100
AcDbLine
 10
170.8950045997
 20
-42.9863852538
 30
0.0
 11
170.8950045997
 21
19.8714773082
 31
0.0
  0
LINE
  5
D4
330
1F
100
AcDbEntity
  8
0
  6
Continuous
 62
     7
370
    25
100
AcDbLine
 10
101.8950026029
 20
-155.1285197116
 30
0.0
 11
176.8950055832
 21
-155.1285197116
 31
0.0
  0
LINE
  5
D5
330
1F
100
AcDbEntity
  8
0
  6
Continuous
 62
     7
370
    25
100
AcDbLine
 10
107.8950035864
 20
19.8714773082
 30
0.0
 11
170.8950045997
 21
19.8714773082
 31
0.0
  0
LINE
  5
D6
330
1F
100
AcDbEntity
  8
0
  6
Continuous
 62
     1
370
    25
100
AcDbLine
 10
101.8950026029
 20
-85.2706560022
 30
0.0
 11
176.8950055832
 21
-85.2706560022
 31
0.0
  0
LINE
  5
D7
330
1F
100
AcDbEntity
  8
0
  6
Continuous
 62
     1
370
    25
100
AcDbLine
 10
101.9151042694
 20
-84.9878133363
 30
0.0
 11
176.8749039167
 21
-84.9878133363
 31
0.0
  0
LINE
  5
D8
330
1F
100
AcDbEntity
  8
0
  6
Continuous
 62
     1
370
    25
100
AcDbLine
 10
107.87490192
 20
-43.2692279197
 30
0.0
 11
170.9151062661
 21
-43.2692279197
 31
0.0
  0
LINE
  5
D9
330
1F
100
AcDbEntity
  8
0
  6
Continuous
 62
     1
370
    25
100
AcDbLine
 10
107.8950035864
 20
-42.9863852538
 30
0.0
 11
170.8950045997
 21
-42.9863852538
 31
0.0
  0
LINE
  5
DA
330
1F
100
AcDbEntity
  8
0
  6
Continuous
 62
     7
370
    25
100
AcDbLine
 10
331.5035099
 20
-9.0867830946
 30
0.0
 11
282.106540752
 21
19.4294802089
 31
0.0
  0
LINE
  5
DB
330
1F
100
AcDbEntity
  8
0
  6
Continuous
 62
     7
370
    25
100
AcDbLine
 10
244.6095880841
 20
-45.5241855948
 30
0.0
 11
294.0065572321
 21
-74.0404488983
 31
0.0
  0
SPLINE
  5
DC
330
1F
100
AcDbEntity
  8
0
  6
Continuous
 62
     7
370
    25
100
AcDbSpline
210
0.0
220
0.0
230
1.0
 70
     8
 71
     3
 72
     9
 73
     5
 74
     0
 42
0.000000001
 43
0.00000001
 40
0.0
 40
0.0
 40
0.0
 40
0.0
 40
0.4595295678890769
 40
1.0
 40
1.0
 40
1.0
 40
1.0
 10
333.4108286509031
 20
-10.42538939589459
 30
0.0
 10
333.1356917890741
 20
-10.20083106062633
 30
0.0
 10
332.5369558620413
 20
-9.712161014213857
 30
0.0
 10
331.8782063615082
 20
-9.315854752071736
 30
0.0
 10
331.5221717343023
 20
-9.101662935323523
 30
0.0
  0
SPLINE
  5
DD
330
1F
100
AcDbEntity
  8
0
  6
Continuous
 62
     7
370
    25
100
AcDbSpline
210
0.0
220
0.0
230
1.0
 70
     8
 71
     3
 72
     9
 73
     5
 74
     0
 42
0.000000001
 43
0.00000001
 40
0.0
 40
0.0
 40
0.0
 40
0.0
 40
0.4736752332388455
 40
1.0
 40
1.0
 40
1.0
 40
1.0
 10
294.0263359578847
 20
-74.04507026593588
 30
0.0
 10
294.3715464773332
 20
-74.2367462441706
 30
0.0
 10
295.1003380527087
 20
-74.64140320063441
 30
0.0
 10
295.883373965427
 20
-74.94024395900152
 30
0.0
 10
296.2955051595541
 20
-75.09753125144783
 30
0.0
  0
LINE
  5
DE
330
1F
100
AcDbEntity
  8
0
  6
Continuous
 62
     7
370
    25
100
AcDbLine
 10
296.2058008609
 20
-75.0654312074
 30
0.0
 11
328.36864443
 21
-86.7862554074
 31
0.0
  0
LINE
  5
DF
330
1F
100
AcDbEntity
  8
0
  6
Continuous
 62
     7
370
    25
100
AcDbLine
 10
359.7249408813
 20
-32.4696709931
 30
0.0
 11
333.4909234681
 21
-10.4787053743
 31
0.0
  0
LINE
  5
E0
330
1F
100
AcDbEntity
  8
0
  6
Continuous
 62
     7
370
    25
100
AcDbLine
 10
402.8504695076
 20
-57.2025221405
 30
0.0
 11
359.1004075629
 21
-31.9461489769
 31
0.0
  0
LINE
  5
E1
330
1F
100
AcDbEntity
  8
0
  6
Continuous
 62
     7
370
    25
100
AcDbLine
 10
327.6029665843
 20
-86.5072272177
 30
0.0
 11
371.353028529
 21
-111.7636003813
 31
0.0
  0
LWPOLYLINE
  5
E2
330
1F
100
AcDbEntity
  8
0
  6
Continuous
 62
     7
370
    25
100
AcDbPolyline
 90
      103
 70
   128
 43
0.0
 10
236.8415590698
 20
-28.3550053979
 10
236.891853431
 20
-26.4409588606
 10
237.0425415853
 20
-24.4761068528
 10
237.2930545503
 20
-22.4679007165
 10
237.6424387536
 20
-20.4239605809
 10
238.0893744719
 20
-18.3520369598
 10
238.6321600263
 20
-16.2599921194
 10
239.2687407578
 20
-14.1557605367
 10
239.9967011253
 20
-12.0473238036
 10
240.813277876
 20
-9.9426809699
 10
241.7153758506
 20
-7.8498135637
 10
242.6995706178
 20
-5.776665059
 10
243.7621308643
 20
-3.7310944897
 10
244.8990262979
 20
-1.7208642828
 10
246.1059408176
 20
0.2463992843
 10
247.3783001735
 20
2.1632372603
 10
248.7112759172
 20
4.0223739895
 10
250.0998117439
 20
5.8167612156
 10
251.5386419318
 20
7.539591769
 10
253.0223058298
 20
9.1843246603
 10
254.5451768336
 20
10.7447276636
 10
256.1014788494
 20
12.2148807371
 10
257.6853067085
 20
13.5892030174
 10
259.2906538265
 20
14.8624839962
 10
260.9114301484
 20
16.0298938798
 10
262.5414870911
 20
17.0870040715
 10
264.1746417449
 20
18.029804185
 10
265.8046986876
 20
18.8547176794
 10
267.4254750095
 20
19.5586163052
 10
269.0308221275
 20
20.1388296561
 10
270.6146499866
 20
20.593156098
 10
272.1709520024
 20
20.9198710846
 10
273.6938230062
 20
21.1177375164
 10
275.1774869042
 20
21.1860064995
 10
276.6163170921
 20
21.1244139205
 10
278.0048529188
 20
20.9331960355
 10
279.3378286625
 20
20.613080341
 10
280.6101880184
 20
20.165277208
 10
281.8171025382
 20
19.5914874845
 10
282.9539979717
 20
18.8938888051
 10
284.0165582182
 20
18.0751241831
 10
285.0007529854
 20
17.1383027692
 10
285.90285096
 20
16.0869755147
 10
286.7194277107
 20
14.9251321293
 10
287.4473880782
 20
13.6571805462
 10
288.0839688097
 20
12.2879294317
 10
288.6267543641
 20
10.8225714529
 10
289.0736900824
 20
9.2666688284
 10
289.4230742857
 20
7.6261191074
 10
289.6735872507
 20
5.9071490841
 10
289.824275405
 20
4.1162779159
 10
289.8745697662
 20
2.260300012
 10
289.824275405
 20
0.3462534747
 10
289.6735872507
 20
-1.6185985332
 10
289.4230742857
 20
-3.6268046694
 10
289.0736900824
 20
-5.670744805
 10
288.6267543641
 20
-7.7426684261
 10
288.0839688097
 20
-9.8347132665
 10
287.4473880782
 20
-11.9389448492
 10
286.7194277107
 20
-14.0473815824
 10
285.90285096
 20
-16.1520244161
 10
285.0007529854
 20
-18.2448918223
 10
284.0165582182
 20
-20.318040327
 10
282.9539979717
 20
-22.3636108962
 10
281.8171025382
 20
-24.3738411031
 10
280.6101880184
 20
-26.3411046702
 10
279.3378286625
 20
-28.2579426463
 10
278.0048529188
 20
-30.1170793754
 10
276.6163170921
 20
-31.9114666015
 10
275.1774869042
 20
-33.634297155
 10
273.6938230062
 20
-35.2790300463
 10
272.1709520024
 20
-36.8394330496
 10
270.6146499866
 20
-38.3095861231
 10
269.0308221275
 20
-39.6839084034
 10
267.4254750095
 20
-40.9571893822
 10
265.8046986876
 20
-42.1245992657
 10
264.1746417449
 20
-43.1817094574
 10
262.5414870911
 20
-44.124509571
 10
260.9114301484
 20
-44.9494230653
 10
259.2906538265
 20
-45.6533216911
 10
257.6853067085
 20
-46.233535042
 10
256.1014788494
 20
-46.687861484
 10
254.5451768336
 20
-47.0145764705
 10
253.0223058298
 20
-47.2124429024
 10
251.5386419318
 20
-47.2807118854
 10
250.0998117439
 20
-47.2191193065
 10
248.7112759172
 20
-47.0279014215
 10
247.3783001735
 20
-46.707785727
 10
246.1059408176
 20
-46.259982594
 10
244.8990262979
 20
-45.6861928705
 10
243.7621308643
 20
-44.988594191
 10
242.6995706178
 20
-44.1698295691
 10
241.7153758506
 20
-43.2330081552
 10
240.813277876
 20
-42.1816809007
 10
239.9967011253
 20
-41.0198375152
 10
239.2687407578
 20
-39.7518859322
 10
238.6321600263
 20
-38.3826348176
 10
238.0893744719
 20
-36.9172768389
 10
237.6424387536
 20
-35.3613742143
 10
237.2930545503
 20
-33.7208244934
 10
237.0425415853
 20
-32.00185447
 10
236.891853431
 20
-30.2109833018
 10
236.8415590698
 20
-28.3550053979
  0
LWPOLYLINE
  5
E3
330
1F
100
AcDbEntity
  8
0
  6
Continuous
 62
     7
370
    25
100
AcDbPolyline
 90
       94
 70
   128
 43
0.0
 10
241.6498862335
 20
-25.5792172107
 10
241.6994114147
 20
-23.858305932
 10
241.8477591018
 20
-22.0880673752
 10
242.0942536282
 20
-20.2765777829
 10
242.4377701999
 20
-18.4321027107
 10
242.876741481
 20
-16.5630584347
 10
243.4091641789
 20
-14.6779725978
 10
244.0326095817
 20
-12.7854465678
 10
244.7442327771
 20
-10.8941151339
 10
245.5407858234
 20
-9.0126092451
 10
246.4186348722
 20
-7.1495126657
 10
247.3737746557
 20
-5.3133277553
 10
248.4018482434
 20
-3.5124298434
 10
249.4981628473
 20
-1.7550383331
 10
250.6577161631
 20
-0.0491710757
 10
251.8752200786
 20
1.5973890873
 10
253.1451158195
 20
3.1771274029
 10
254.4616114868
 20
4.6828386486
 10
255.8186998377
 20
6.1076510848
 10
257.210188578
 20
7.4450621942
 10
258.6297290094
 20
8.6889719491
 10
260.0708433589
 20
9.8337046721
 10
261.5269563889
 20
10.8740348892
 10
262.9914245788
 20
11.8052178639
 10
264.4575656364
 20
12.6230051132
 10
265.9186897785
 20
13.3236624651
 10
267.3681306001
 20
13.903997005
 10
268.7992742565
 20
14.3613571917
 10
270.2055911142
 20
14.6936587337
 10
271.580663657
 20
14.8993839692
 10
272.9182189192
 20
14.9775945051
 10
274.2121535103
 20
14.9279334966
 10
275.4565635787
 20
14.7506277354
 10
276.6457698367
 20
14.4464868869
 10
277.774347853
 20
14.0168966432
 10
278.8371478098
 20
13.4638194819
 10
279.8293215022
 20
12.7897783132
 10
280.7463394612
 20
11.9978481137
 10
281.5840186121
 20
11.0916414745
 10
282.3385367625
 20
10.0752949121
 10
283.0064510417
 20
8.9534445312
 10
283.5847150229
 20
7.7312092935
 10
284.0706892597
 20
6.4141666813
 10
284.4621570912
 20
5.0083260806
 10
284.7573312277
 20
3.5201010228
 10
284.9548656041
 20
1.9562827579
 10
285.0538580145
 20
0.3240058433
 10
285.0538580145
 20
-1.3692811348
 10
284.9548656041
 20
-3.1158522537
 10
284.7573312277
 20
-4.907738855
 10
284.4621570912
 20
-6.7367647167
 10
284.0706892597
 20
-8.594584455
 10
283.5847150229
 20
-10.4727209777
 10
283.0064510417
 20
-12.3626055968
 10
282.3385367625
 20
-14.2556133899
 10
281.5840186121
 20
-16.1431080659
 10
280.7463394612
 20
-18.016478466
 10
279.8293215022
 20
-19.8671750645
 10
278.8371478098
 20
-21.686755595
 10
277.774347853
 20
-23.4669154672
 10
276.6457698367
 20
-25.1995341528
 10
275.4565635787
 20
-26.876703321
 10
274.2121535103
 20
-28.4907743648
 10
272.9182189192
 20
-30.0343804527
 10
271.580663657
 20
-31.5004783509
 10
270.2055911142
 20
-32.8823780799
 10
268.7992742565
 20
-34.1737754203
 10
267.3681306001
 20
-35.3687785278
 10
265.9186897785
 20
-36.4619327393
 10
264.4575656364
 20
-37.4482534135
 10
262.9914245788
 20
-38.3232365977
 10
261.5269563889
 20
-39.0828926046
 10
260.0708433589
 20
-39.7237547067
 10
258.6297290094
 20
-40.2428971951
 10
257.210188578
 20
-40.637953936
 10
255.8186998377
 20
-40.9071215291
 10
254.4616114868
 20
-41.0491699512
 10
253.1451158195
 20
-41.0634522491
 10
251.8752200786
 20
-40.9499043471
 10
250.6577161631
 20
-40.7090442838
 10
249.4981628473
 20
-40.3419687879
 10
248.4018482434
 20
-39.8503551763
 10
247.3737746557
 20
-39.2364457631
 10
246.4186348722
 20
-38.5030417734
 10
245.5407858234
 20
-37.6534881318
 10
244.7442327771
 20
-36.6916628144
 10
244.0326095817
 20
-35.6219540331
 10
243.4091641789
 20
-34.4492427434
 10
242.876741481
 20
-33.1788790689
 10
242.4377701999
 20
-31.8166602459
 10
242.0942536282
 20
-30.3688009652
 10
241.8477591018
 20
-28.8419078952
 10
241.6994114147
 20
-27.2429479322
 10
241.6498862335
 20
-25.5792172107
  0
LINE
  5
E4
330
1F
100
AcDbEntity
  8
0
  6
Continuous
 62
     7
370
    25
100
AcDbLine
 10
333.4236755372
 20
-10.4227229117
 30
0.0
 11
333.4909234681
 21
-10.4787053743
 31
0.0
  0
LINE
  5
E5
330
1F
100
AcDbEntity
  8
0
  6
Continuous
 62
     7
370
    25
100
AcDbLine
 10
296.2873392077
 20
-75.094835312
 30
0.0
 11
296.2058008609
 21
-75.0654312074
 31
0.0
  0
LINE
  5
E6
330
1F
100
AcDbEntity
  8
0
  6
Continuous
 62
     7
370
    25
100
AcDbLine
 10
328.4366997365
 20
-86.8107996493
 30
0.0
 11
328.36864443
 21
-86.7862554074
 31
0.0
  0
LWPOLYLINE
  5
E7
330
1F
100
AcDbEntity
  8
0
  6
Continuous
 62
     7
370
    25
100
AcDbPolyline
 90
       49
 70
   128
 43
0.0
 10
402.8504695076
 20
-57.2025221405
 10
403.6212062922
 20
-57.6933029137
 10
404.5822637566
 20
-58.4511662267
 10
405.4652481354
 20
-59.3252931876
 10
406.2662160642
 20
-60.3117822517
 10
406.9815916461
 20
-61.4062254407
 10
407.6081796233
 20
-62.6037341991
 10
408.1431798645
 20
-63.8989629707
 10
408.5842044873
 20
-65.2861244087
 10
408.9292818095
 20
-66.7590251184
 10
409.1768734711
 20
-68.31108467
 10
409.3258718002
 20
-69.935372481
 10
409.3756129839
 20
-71.6246332929
 10
409.3258718002
 20
-73.3713240532
 10
409.1768734711
 20
-75.1676416732
 10
408.9292818095
 20
-77.0055644725
 10
408.5842044873
 20
-78.8768829778
 10
408.1431798645
 20
-80.7732406068
 10
407.6081796233
 20
-82.6861675087
 10
406.9815916461
 20
-84.6071193468
 10
406.2662160642
 20
-86.5275176017
 10
405.4652481354
 20
-88.4387845518
 10
404.5822637566
 20
-90.3323835765
 10
403.6212062922
 20
-92.1998602191
 10
402.5863707694
 20
-94.0328688025
 10
401.4823762195
 20
-95.8232279399
 10
400.3141538238
 20
-97.5629380244
 10
399.0869218888
 20
-99.2442306566
 10
397.8061614806
 20
-100.8595963997
 10
396.4775927168
 20
-102.4018197581
 10
395.1071484248
 20
-103.8640141561
 10
393.7009510929
 20
-105.2396489328
 10
392.2652792845
 20
-106.5225793767
 10
390.8065462352
 20
-107.7070758115
 10
389.3312667612
 20
-108.7878487836
 10
387.8460296827
 20
-109.760069544
 10
386.3574683539
 20
-110.6193977078
 10
384.8722312754
 20
-111.3619951773
 10
383.3969518014
 20
-111.9845436297
 10
381.9382187521
 20
-112.484264524
 10
380.5025469437
 20
-112.8589254673
 10
379.0963496118
 20
-113.1068515715
 10
377.7259053198
 20
-113.2269384732
 10
376.397336556
 20
-113.2186479589
 10
375.1165761478
 20
-113.0820167074
 10
373.8893442129
 20
-112.8176559069
 10
372.7211218171
 20
-112.4267466906
 10
371.6171272672
 20
-111.9110325289
 10
371.353028529
 20
-111.7636003813
  0
LWPOLYLINE
  5
E8
330
1F
100
AcDbEntity
  8
0
  6
Continuous
 62
     1
370
    25
100
AcDbPolyline
 90
       53
 70
   128
 43
0.0
 10
331.5035099
 20
-9.0867830946
 10
332.3509671198
 20
-9.6223744984
 10
333.4135273663
 20
-10.4411391203
 10
334.3977221335
 20
-11.3779605342
 10
335.2998201081
 20
-12.4292877887
 10
336.1163968588
 20
-13.5911311742
 10
336.8443572262
 20
-14.8590827572
 10
337.4809379578
 20
-16.2283338718
 10
338.0237235122
 20
-17.6936918505
 10
338.4706592305
 20
-19.2495944751
 10
338.8200434338
 20
-20.890144196
 10
339.0705563988
 20
-22.6091142194
 10
339.2212445531
 20
-24.3999853876
 10
339.2715389143
 20
-26.2559632915
 10
339.2212445531
 20
-28.1700098288
 10
339.0705563988
 20
-30.1348618366
 10
338.8200434338
 20
-32.1430679729
 10
338.4706592305
 20
-34.1870081085
 10
338.0237235122
 20
-36.2589317296
 10
337.4809379578
 20
-38.35097657
 10
336.8443572262
 20
-40.4552081527
 10
336.1163968588
 20
-42.5636448858
 10
335.2998201081
 20
-44.6682877195
 10
334.3977221335
 20
-46.7611551257
 10
333.4135273663
 20
-48.8343036304
 10
332.3509671198
 20
-50.8798741997
 10
331.2140716862
 20
-52.8901044066
 10
330.0071571665
 20
-54.8573679737
 10
328.7347978106
 20
-56.7742059497
 10
327.4018220669
 20
-58.6333426789
 10
326.0132862402
 20
-60.427729905
 10
324.5744560523
 20
-62.1505604584
 10
323.0907921543
 20
-63.7952933497
 10
321.5679211505
 20
-65.355696353
 10
320.0116191347
 20
-66.8258494265
 10
318.4277912756
 20
-68.2001717068
 10
316.8224441576
 20
-69.4734526856
 10
315.2016678357
 20
-70.6408625692
 10
313.571610893
 20
-71.6979727609
 10
311.9384562392
 20
-72.6407728744
 10
310.3083992965
 20
-73.4656863688
 10
308.6876229746
 20
-74.1695849946
 10
307.0822758566
 20
-74.7497983455
 10
305.4984479975
 20
-75.2041247874
 10
303.9421459817
 20
-75.530839774
 10
302.4192749779
 20
-75.7287062058
 10
300.9356110799
 20
-75.7969751889
 10
299.496780892
 20
-75.7353826099
 10
298.1082450653
 20
-75.5441647249
 10
296.7752693216
 20
-75.2240490304
 10
295.5029099657
 20
-74.7762458974
 10
294.2959954459
 20
-74.2024561739
 10
294.0065572321
 20
-74.0404488983
  0
LWPOLYLINE
  5
E9
330
1F
100
AcDbEntity
  8
0
  6
Continuous
 62
     1
370
    25
100
AcDbPolyline
 90
       50
 70
   128
 43
0.0
 10
333.4909234681
 20
-10.4787053743
 10
333.6024532489
 20
-10.5732786395
 10
334.5861211805
 20
-11.5095980985
 10
335.4877344664
 20
-12.5603625649
 10
336.3038739435
 20
-13.7215823298
 10
337.0314444526
 20
-14.9888540225
 10
337.667682741
 20
-16.3573727791
 10
338.2101785358
 20
-17.821944412
 10
338.6568745439
 20
-19.3770135467
 10
339.0060717205
 20
-21.0166833946
 10
339.2564503425
 20
-22.7347317243
 10
339.4070568373
 20
-24.524643751
 10
339.4573248567
 20
-26.3796263967
 10
339.4070568373
 20
-28.2926472621
 10
339.2564503425
 20
-30.2564458464
 10
339.0060717205
 20
-32.2635751798
 10
338.6568745439
 20
-34.3064195059
 10
338.2101785358
 20
-36.3772328737
 10
337.667682741
 20
-38.468156819
 10
337.0314444526
 20
-40.5712606674
 10
336.3038739435
 20
-42.6785673892
 10
335.4877344664
 20
-44.782081737
 10
334.5861211805
 20
-46.8738267455
 10
333.6024532489
 20
-48.9458650238
 10
332.5404633019
 20
-50.9903382986
 10
331.4041776806
 20
-52.9994909868
 10
330.1979085345
 20
-54.9657006129
 10
328.9262314307
 20
-56.8815105071
 10
327.5939708663
 20
-58.7396518575
 10
326.2061791949
 20
-60.5330756469
 10
324.7681208212
 20
-62.2549830708
 10
323.2852517864
 20
-63.89883428
 10
321.7631973778
 20
-65.4584008508
 10
320.2077297379
 20
-66.9277650223
 10
318.6247500841
 20
-68.3013512541
 10
317.0202636838
 20
-69.5739497982
 10
315.400356476
 20
-70.7407362788
 10
313.7711730926
 20
-71.7972782966
 10
312.1388939737
 20
-72.7395729746
 10
310.5097105903
 20
-73.5640460528
 10
308.8898033825
 20
-74.2675646237
 10
307.2853169822
 20
-74.8474666458
 10
305.7023373284
 20
-75.3015498192
 10
304.1468696885
 20
-75.6280903578
 10
302.6248152799
 20
-75.8258504015
 10
301.1419462451
 20
-75.8940833372
 10
299.7038878714
 20
-75.8325227701
 10
298.3160962
 20
-75.6414091383
 10
296.9838356356
 20
-75.3214630942
 10
296.2873392077
 20
-75.094835312
  0
LWPOLYLINE
  5
EA
330
1F
100
AcDbEntity
  8
0
  6
Continuous
 62
     1
370
    25
100
AcDbPolyline
 90
       46
 70
   128
 43
0.0
 10
359.7249408813
 20
-32.4696709931
 10
359.946197348
 20
-32.6602629944
 10
360.8297454409
 20
-33.5349481879
 10
361.6312244002
 20
-34.5220654424
 10
362.347057012
 20
-35.6172067791
 10
362.9740440671
 20
-36.8154806007
 10
363.5093854344
 20
-38.1115360275
 10
363.9506919143
 20
-39.4995826707
 10
364.2959905074
 20
-40.9734221926
 10
364.5437402197
 20
-42.5264722619
 10
364.6928333792
 20
-44.151796973
 10
364.7426061731
 20
-45.842135744
 10
364.6928333792
 20
-47.5899409597
 10
364.5437402197
 20
-49.3874049686
 10
364.2959905074
 20
-51.2265007671
 10
363.9506919143
 20
-53.0990135586
 10
363.5093854344
 20
-54.996581818
 10
362.9740440671
 20
-56.910729231
 10
362.347057012
 20
-58.8329068977
 10
361.6312244002
 20
-60.7545309759
 10
360.8297454409
 20
-62.6670161397
 10
359.946197348
 20
-64.5618242474
 10
358.9845274371
 20
-66.430490957
 10
357.9490307357
 20
-68.2646705912
 10
356.8443315432
 20
-70.0561726382
 10
355.675363675
 20
-71.7969929286
 10
354.4473493892
 20
-73.4793577401
 10
353.1657717273
 20
-75.0957534535
 10
351.8363547581
 20
-76.6389622921
 10
350.4650365776
 20
-78.1020900764
 10
349.057940991
 20
-79.478602343
 10
347.6213534764
 20
-80.7623503886
 10
346.1616895745
 20
-81.9476032066
 10
344.6854687111
 20
-83.0290641191
 10
343.1992837401
 20
-84.0019081325
 10
341.7097726255
 20
-84.8617845961
 10
340.2235876545
 20
-85.604853226
 10
338.7473667911
 20
-86.2278006429
 10
337.2877028892
 20
-86.7278398936
 10
335.8511153746
 20
-87.1027404869
 10
334.444019788
 20
-87.3508262041
 10
333.0727016075
 20
-87.4709886899
 10
331.7432846383
 20
-87.4626920123
 10
330.4617069764
 20
-87.3259743715
 10
329.2336926906
 20
-87.0614446749
 10
328.4366997365
 20
-86.8107996493
  0
LWPOLYLINE
  5
EB
330
1F
100
AcDbEntity
  8
0
  6
Continuous
 62
     1
370
    25
100
AcDbPolyline
 90
       47
 70
   128
 43
0.0
 10
359.3973426474
 20
-32.1950581259
 10
360.1350428882
 20
-32.792331783
 10
361.018027267
 20
-33.6664587439
 10
361.8189951957
 20
-34.652947808
 10
362.5343707776
 20
-35.747390997
 10
363.1609587548
 20
-36.9448997554
 10
363.695958996
 20
-38.240128527
 10
364.1369836189
 20
-39.627289965
 10
364.482060941
 20
-41.1001906747
 10
364.7296526026
 20
-42.6522502263
 10
364.8786509317
 20
-44.2765380373
 10
364.9283921155
 20
-45.9657988492
 10
364.8786509317
 20
-47.7124896095
 10
364.7296526026
 20
-49.5088072295
 10
364.482060941
 20
-51.3467300288
 10
364.1369836189
 20
-53.2180485341
 10
363.695958996
 20
-55.114406163
 10
363.1609587548
 20
-57.027333065
 10
362.5343707776
 20
-58.948284903
 10
361.8189951957
 20
-60.8686831579
 10
361.018027267
 20
-62.7799501081
 10
360.1350428882
 20
-64.6735491328
 10
359.1739854237
 20
-66.5410257754
 10
358.139149901
 20
-68.3740343588
 10
357.0351553511
 20
-70.1643934962
 10
355.8669329553
 20
-71.9041035807
 10
354.6397010204
 20
-73.5853962129
 10
353.3589406122
 20
-75.200761956
 10
352.0303718484
 20
-76.7429853143
 10
350.6599275564
 20
-78.2051797124
 10
349.2537302245
 20
-79.5808144891
 10
347.818058416
 20
-80.863744933
 10
346.3593253668
 20
-82.0482413678
 10
344.8840458928
 20
-83.1290143399
 10
343.3988088143
 20
-84.1012351003
 10
341.9102474854
 20
-84.9605632641
 10
340.4250104069
 20
-85.7031607336
 10
338.949730933
 20
-86.325709186
 10
337.4909978837
 20
-86.8254300803
 10
336.0553260753
 20
-87.2000910236
 10
334.6491287434
 20
-87.4480171278
 10
333.2786844514
 20
-87.5681040295
 10
331.9501156876
 20
-87.5598135152
 10
330.6693552794
 20
-87.4231822636
 10
329.4421233444
 20
-87.1588214632
 10
328.2739009487
 20
-86.7679122469
 10
327.9670099883
 20
-86.6398922225
  0
ENDSEC
  0
SECTION
  2
OBJECTS
  0
DICTIONARY
  5
C
330
0
100
AcDbDictionary
281
     1
  3
ACAD_GROUP
350
D
  3
ACAD_LAYOUT
350
1A
  3
ACAD_MLINESTYLE
350
17
  3
ACAD_PLOTSETTINGS
350
19
  3
ACAD_PLOTSTYLENAME
350
E
  3
ACAD_SCALELIST
350
47
  0
DICTIONARY
  5
D
102
{ACAD_REACTORS
330
C
102
}
330
C
100
AcDbDictionary
281
     1
  0
DICTIONARY
  5
1A
102
{ACAD_REACTORS
330
C
102
}
330
C
100
AcDbDictionary
281
     1
  3
Layout1
350
1E
  3
Layout2
350
26
  3
Model
350
22
  0
DICTIONARY
  5
17
102
{ACAD_REACTORS
330
C
102
}
330
C
100
AcDbDictionary
281
     1
  3
Standard
350
18
  0
DICTIONARY
  5
19
102
{ACAD_REACTORS
330
C
102
}
330
C
100
AcDbDictionary
281
     1
  0
ACDBDICTIONARYWDFLT
  5
E
102
{ACAD_REACTORS
330
C
102
}
330
C
100
AcDbDictionary
281
     1
  3
Normal
350
F
100
AcDbDictionaryWithDefault
340
F
  0
DICTIONARY
  5
47
102
{ACAD_REACTORS
330
C
102
}
330
C
100
AcDbDictionary
281
     1
  3
A0
350
48
  3
A1
350
49
  3
A2
350
4A
  3
A3
350
4B
  3
A4
350
4C
  3
A5
350
4D
  3
A6
350
4E
  3
A7
350
4F
  3
A8
350
50
  3
A9
350
51
  3
B0
350
52
  3
B1
350
53
  3
B2
350
54
  3
B3
350
55
  3
B4
350
56
  3
B5
350
57
  3
B6
350
58
  3
B7
350
59
  3
B8
350
5A
  3
B9
350
5B
  3
C0
350
5C
  3
C1
350
5D
  3
C2
350
5E
  3
C3
350
5F
  3
C4
350
60
  3
C5
350
61
  3
C6
350
62
  3
C7
350
63
  3
C8
350
64
  3
C9
350
65
  3
D0
350
66
  3
D1
350
67
  3
D2
350
68
  0
LAYOUT
  5
1E
102
{ACAD_REACTORS
330
1A
102
}
330
1A
100
AcDbPlotSettings
  1

  2
none_device
  4

  6

 40
0.0
 41
0.0
 42
0.0
 43
0.0
 44
0.0
 45
0.0
 46
0.0
 47
0.0
 48
0.0
 49
0.0
140
0.0
141
0.0
142
1.0
143
1.0
 70
   688
 72
     1
 73
     0
 74
     5
  7

 75
    16
147
1.0
148
0.0
149
0.0
100
AcDbLayout
  1
Layout1
 70
     1
 71
     1
 10
0.0
 20
0.0
 11
420.0
 21
297.0
 12
0.0
 22
0.0
 32
0.0
 14
1.0000000000E+20
 24
1.0000000000E+20
 34
1.0000000000E+20
 15
-1.0000000000E+20
 25
-1.0000000000E+20
 35
-1.0000000000E+20
146
0.0
 13
0.0
 23
0.0
 33
0.0
 16
1.0
 26
0.0
 36
0.0
 17
0.0
 27
1.0
 37
0.0
 76
     0
330
1B
  0
LAYOUT
  5
26
102
{ACAD_REACTORS
330
1A
102
}
330
1A
100
AcDbPlotSettings
  1

  2
none_device
  4

  6

 40
0.0
 41
0.0
 42
0.0
 43
0.0
 44
0.0
 45
0.0
 46
0.0
 47
0.0
 48
0.0
 49
0.0
140
0.0
141
0.0
142
1.0
143
1.0
 70
   688
 72
     1
 73
     0
 74
     5
  7

 75
    16
147
1.0
148
0.0
149
0.0
100
AcDbLayout
  1
Layout2
 70
     1
 71
     2
 10
0.0
 20
0.0
 11
0.0
 21
0.0
 12
0.0
 22
0.0
 32
0.0
 14
0.0
 24
0.0
 34
0.0
 15
0.0
 25
0.0
 35
0.0
146
0.0
 13
0.0
 23
0.0
 33
0.0
 16
1.0
 26
0.0
 36
0.0
 17
0.0
 27
1.0
 37
0.0
 76
     0
330
23
  0
LAYOUT
  5
22
102
{ACAD_REACTORS
330
1A
102
}
330
1A
100
AcDbPlotSettings
  1

  2
none_device
  4
Letter_(8.50_x_11.00_Inches)
  6

 40
6.35
 41
6.35
 42
6.35000508
 43
6.35000508
 44
215.9
 45
279.4
 46
0.0
 47
0.0
 48
0.0
 49
0.0
140
0.0
141
0.0
142
1.0
143
1.0
 70
  1712
 72
     1
 73
     0
 74
     0
  7

 75
     0
147
1.0
148
0.0
149
0.0
100
AcDbLayout
  1
Model
 70
     1
 71
     0
 10
0.0
 20
0.0
 11
279.4
 21
215.9
 12
0.0
 22
0.0
 32
0.0
 14
0.0
 24
0.0
 34
0.0
 15
279.4
 25
215.9
 35
0.0
146
0.0
 13
0.0
 23
0.0
 33
0.0
 16
1.0
 26
0.0
 36
0.0
 17
0.0
 27
1.0
 37
0.0
 76
     0
330
1F
331
29
  0
MLINESTYLE
  5
18
102
{ACAD_REACTORS
330
17
102
}
330
17
100
AcDbMlineStyle
  2
Standard
 70
     0
  3

 62
   256
 51
90.0
 52
90.0
 71
     2
 49
0.5
 62
   256
  6
BYLAYER
 49
-0.5
 62
   256
  6
BYLAYER
  0
ACDBPLACEHOLDER
  5
F
102
{ACAD_REACTORS
330
E
102
}
330
E
  0
SCALE
  5
48
102
{ACAD_REACTORS
330
47
102
}
330
47
100
AcDbScale
 70
     0
300
1:1
140
1.0
141
1.0
290
     1
  0
SCALE
  5
49
102
{ACAD_REACTORS
330
47
102
}
330
47
100
AcDbScale
 70
     0
300
1:2
140
1.0
141
2.0
290
     0
  0
SCALE
  5
4A
102
{ACAD_REACTORS
330
47
102
}
330
47
100
AcDbScale
 70
     0
300
1:4
140
1.0
141
4.0
290
     0
  0
SCALE
  5
4B
102
{ACAD_REACTORS
330
47
102
}
330
47
100
AcDbScale
 70
     0
300
1:5
140
1.0
141
5.0
290
     0
  0
SCALE
  5
4C
102
{ACAD_REACTORS
330
47
102
}
330
47
100
AcDbScale
 70
     0
300
1:8
140
1.0
141
8.0
290
     0
  0
SCALE
  5
4D
102
{ACAD_REACTORS
330
47
102
}
330
47
100
AcDbScale
 70
     0
300
1:10
140
1.0
141
10.0
290
     0
  0
SCALE
  5
4E
102
{ACAD_REACTORS
330
47
102
}
330
47
100
AcDbScale
 70
     0
300
1:16
140
1.0
141
16.0
290
     0
  0
SCALE
  5
4F
102
{ACAD_REACTORS
330
47
102
}
330
47
100
AcDbScale
 70
     0
300
1:20
140
1.0
141
20.0
290
     0
  0
SCALE
  5
50
102
{ACAD_REACTORS
330
47
102
}
330
47
100
AcDbScale
 70
     0
300
1:30
140
1.0
141
30.0
290
     0
  0
SCALE
  5
51
102
{ACAD_REACTORS
330
47
102
}
330
47
100
AcDbScale
 70
     0
300
1:40
140
1.0
141
40.0
290
     0
  0
SCALE
  5
52
102
{ACAD_REACTORS
330
47
102
}
330
47
100
AcDbScale
 70
     0
300
1:50
140
1.0
141
50.0
290
     0
  0
SCALE
  5
53
102
{ACAD_REACTORS
330
47
102
}
330
47
100
AcDbScale
 70
     0
300
1:100
140
1.0
141
100.0
290
     0
  0
SCALE
  5
54
102
{ACAD_REACTORS
330
47
102
}
330
47
100
AcDbScale
 70
     0
300
2:1
140
2.0
141
1.0
290
     0
  0
SCALE
  5
55
102
{ACAD_REACTORS
330
47
102
}
330
47
100
AcDbScale
 70
     0
300
4:1
140
4.0
141
1.0
290
     0
  0
SCALE
  5
56
102
{ACAD_REACTORS
330
47
102
}
330
47
100
AcDbScale
 70
     0
300
8:1
140
8.0
141
1.0
290
     0
  0
SCALE
  5
57
102
{ACAD_REACTORS
330
47
102
}
330
47
100
AcDbScale
 70
     0
300
10:1
140
10.0
141
1.0
290
     0
  0
SCALE
  5
58
102
{ACAD_REACTORS
330
47
102
}
330
47
100
AcDbScale
 70
     0
300
100:1
140
100.0
141
1.0
290
     0
  0
SCALE
  5
59
102
{ACAD_REACTORS
330
47
102
}
330
47
100
AcDbScale
 70
     0
300
1/128" = 1'-0"
140
0.0078125
141
12.0
290
     0
  0
SCALE
  5
5A
102
{ACAD_REACTORS
330
47
102
}
330
47
100
AcDbScale
 70
     0
300
1/64" = 1'-0"
140
0.015625
141
12.0
290
     0
  0
SCALE
  5
5B
102
{ACAD_REACTORS
330
47
102
}
330
47
100
AcDbScale
 70
     0
300
1/32" = 1'-0"
140
0.03125
141
12.0
290
     0
  0
SCALE
  5
5C
102
{ACAD_REACTORS
330
47
102
}
330
47
100
AcDbScale
 70
     0
300
1/16" = 1'-0"
140
0.0625
141
12.0
290
     0
  0
SCALE
  5
5D
102
{ACAD_REACTORS
330
47
102
}
330
47
100
AcDbScale
 70
     0
300
3/32" = 1'-0"
140
0.09375
141
12.0
290
     0
  0
SCALE
  5
5E
102
{ACAD_REACTORS
330
47
102
}
330
47
100
AcDbScale
 70
     0
300
1/8" = 1'-0"
140
0.125
141
12.0
290
     0
  0
SCALE
  5
5F
102
{ACAD_REACTORS
330
47
102
}
330
47
100
AcDbScale
 70
     0
300
3/16" = 1'-0"
140
0.1875
141
12.0
290
     0
  0
SCALE
  5
60
102
{ACAD_REACTORS
330
47
102
}
330
47
100
AcDbScale
 70
     0
300
1/4" = 1'-0"
140
0.25
141
12.0
290
     0
  0
SCALE
  5
61
102
{ACAD_REACTORS
330
47
102
}
330
47
100
AcDbScale
 70
     0
300
3/8" = 1'-0"
140
0.375
141
12.0
290
     0
  0
SCALE
  5
62
102
{ACAD_REACTORS
330
47
102
}
330
47
100
AcDbScale
 70
     0
300
1/2" = 1'-0"
140
0.5
141
12.0
290
     0
  0
SCALE
  5
63
102
{ACAD_REACTORS
330
47
102
}
330
47
100
AcDbScale
 70
     0
300
3/4" = 1'-0"
140
0.75
141
12.0
290
     0
  0
SCALE
  5
64
102
{ACAD_REACTORS
330
47
102
}
330
47
100
AcDbScale
 70
     0
300
1" = 1'-0"
140
1.0
141
12.0
290
     0
  0
SCALE
  5
65
102
{ACAD_REACTORS
330
47
102
}
330
47
100
AcDbScale
 70
     0
300
1-1/2" = 1'-0"
140
1.5
141
12.0
290
     0
  0
SCALE
  5
66
102
{ACAD_REACTORS
330
47
102
}
330
47
100
AcDbScale
 70
     0
300
3" = 1'-0"
140
3.0
141
12.0
290
     0
  0
SCALE
  5
67
102
{ACAD_REACTORS
330
47
102
}
330
47
100
AcDbScale
 70
     0
300
6" = 1'-0"
140
6.0
141
12.0
290
     0
  0
SCALE
  5
68
102
{ACAD_REACTORS
330
47
102
}
330
47
100
AcDbScale
 70
     0
300
1'-0" = 1'-0"
140
12.0
141
12.0
290
     0
  0
ENDSEC
  0
EOF
